  0
SECTION
  2
HEADER
  9
$ACADVER
  1
AC1011
  9
$LIMMIN
 10
          -0.022
 20
         -0.0325
  9
$LIMMAX
 10
           0.242
 20
          0.0575
  9
$VIEWCTR
 10
            0.11
 20
          0.0125
  0
ENDSEC
  0
SECTION
  2
ENTITIES
  0
LINE
  5
77
  8
0
 10
               0
 20
    1.38778e-017
 30
               0
 11
               0
 21
            0.02
 31
               0
  0
LINE
  5
78
  8
0
 10
               0
 20
    1.38778e-017
 30
               0
 11
             0.1
 21
    1.38778e-017
 31
               0
  0
LINE
  5
79
  8
0
 10
               0
 20
            0.02
 30
               0
 11
           0.055
 21
            0.02
 31
               0
  0
LINE
  5
80
  8
0
 10
        0.062074
 20
       0.0229319
 30
               0
 11
         0.08619
 21
       0.0470681
 31
               0
  0
LINE
  5
81
  8
0
 10
        0.093264
 20
            0.05
 30
               0
 11
         0.14674
 21
            0.05
 31
               0
  0
LINE
  5
82
  8
0
 10
             0.1
 20
    1.38778e-017
 30
               0
 11
             0.1
 21
            0.02
 31
               0
  0
LINE
  5
83
  8
0
 10
            0.11
 20
            0.03
 30
               0
 11
            0.13
 21
            0.03
 31
               0
  0
LINE
  5
84
  8
0
 10
            0.14
 20
           0.005
 30
               0
 11
            0.14
 21
            0.02
 31
               0
  0
LINE
  5
85
  8
0
 10
            0.14
 20
           0.005
 30
               0
 11
            0.19
 21
           0.005
 31
               0
  0
LINE
  5
86
  8
0
 10
        0.153815
 20
       0.0470675
 30
               0
 11
        0.177925
 21
       0.0229325
 31
               0
  0
LINE
  5
87
  8
0
 10
           0.185
 20
            0.02
 30
               0
 11
           0.195
 21
            0.02
 31
               0
  0
LINE
  5
88
  8
0
 10
           0.205
 20
          -0.025
 30
               0
 11
           0.205
 21
           -0.01
 31
               0
  0
LINE
  5
89
  8
0
 10
           0.205
 20
          -0.025
 30
               0
 11
            0.22
 21
          -0.025
 31
               0
  0
LINE
  5
90
  8
0
 10
            0.22
 20
          -0.025
 30
               0
 11
            0.22
 21
          -0.005
 31
               0
  0
SPLINE
  5
91
100
AcDbEntity
  8
0
100
AcDbSpline
 70
12
 71
2
 72
6
 73
3
 40
               0
 40
               0
 40
               0
 40
               1
 40
               1
 40
               1
 10
           0.055
 20
            0.02
 30
               0
 41
               1
 10
       0.0591446
 20
            0.02
 30
               0
 41
        0.853479
 10
        0.062074
 20
       0.0229319
 30
               0
 41
        0.853553
  0
SPLINE
  5
92
100
AcDbEntity
  8
0
100
AcDbSpline
 70
12
 71
2
 72
6
 73
3
 40
               0
 40
               0
 40
               0
 40
               1
 40
               1
 40
               1
 10
           0.075
 20
            0.02
 30
               0
 41
               1
 10
           0.075
 20
          0.0125
 30
               0
 41
        0.707107
 10
          0.0825
 20
          0.0125
 30
               0
 41
               1
  0
SPLINE
  5
93
100
AcDbEntity
  8
0
100
AcDbSpline
 70
12
 71
2
 72
6
 73
3
 40
               0
 40
               0
 40
               0
 40
               1
 40
               1
 40
               1
 10
           0.075
 20
            0.02
 30
               0
 41
               1
 10
           0.075
 20
          0.0275
 30
               0
 41
        0.707107
 10
          0.0825
 20
          0.0275
 30
               0
 41
               1
  0
SPLINE
  5
94
100
AcDbEntity
  8
0
100
AcDbSpline
 70
12
 71
2
 72
6
 73
3
 40
               0
 40
               0
 40
               0
 40
               1
 40
               1
 40
               1
 10
          0.0825
 20
          0.0125
 30
               0
 41
               1
 10
            0.09
 20
          0.0125
 30
               0
 41
        0.707107
 10
            0.09
 20
            0.02
 30
               0
 41
               1
  0
SPLINE
  5
95
100
AcDbEntity
  8
0
100
AcDbSpline
 70
12
 71
2
 72
6
 73
3
 40
               0
 40
               0
 40
               0
 40
               1
 40
               1
 40
               1
 10
          0.0825
 20
          0.0275
 30
               0
 41
               1
 10
            0.09
 20
          0.0275
 30
               0
 41
        0.707107
 10
            0.09
 20
            0.02
 30
               0
 41
               1
  0
SPLINE
  5
96
100
AcDbEntity
  8
0
100
AcDbSpline
 70
12
 71
2
 72
6
 73
3
 40
               0
 40
               0
 40
               0
 40
               1
 40
               1
 40
               1
 10
         0.08619
 20
       0.0470681
 30
               0
 41
        0.853553
 10
       0.0891194
 20
            0.05
 30
               0
 41
        0.853479
 10
        0.093264
 20
            0.05
 30
               0
 41
               1
  0
SPLINE
  5
97
100
AcDbEntity
  8
0
100
AcDbSpline
 70
12
 71
2
 72
6
 73
3
 40
               0
 40
               0
 40
               0
 40
               1
 40
               1
 40
               1
 10
             0.1
 20
            0.02
 30
               0
 41
               1
 10
             0.1
 20
            0.03
 30
               0
 41
        0.707107
 10
            0.11
 20
            0.03
 30
               0
 41
               1
  0
SPLINE
  5
98
100
AcDbEntity
  8
0
100
AcDbSpline
 70
12
 71
2
 72
6
 73
3
 40
               0
 40
               0
 40
               0
 40
               1
 40
               1
 40
               1
 10
            0.13
 20
            0.03
 30
               0
 41
               1
 10
            0.14
 20
            0.03
 30
               0
 41
        0.707107
 10
            0.14
 20
            0.02
 30
               0
 41
               1
  0
SPLINE
  5
99
100
AcDbEntity
  8
0
100
AcDbSpline
 70
12
 71
2
 72
6
 73
3
 40
               0
 40
               0
 40
               0
 40
               1
 40
               1
 40
               1
 10
         0.14674
 20
            0.05
 30
               0
 41
               1
 10
        0.150885
 20
            0.05
 30
               0
 41
        0.853464
 10
        0.153815
 20
       0.0470675
 30
               0
 41
        0.853553
  0
SPLINE
  5
100
100
AcDbEntity
  8
0
100
AcDbSpline
 70
12
 71
2
 72
6
 73
3
 40
               0
 40
               0
 40
               0
 40
               1
 40
               1
 40
               1
 10
            0.15
 20
            0.02
 30
               0
 41
               1
 10
            0.15
 20
          0.0125
 30
               0
 41
        0.707107
 10
          0.1575
 20
          0.0125
 30
               0
 41
               1
  0
SPLINE
  5
101
100
AcDbEntity
  8
0
100
AcDbSpline
 70
12
 71
2
 72
6
 73
3
 40
               0
 40
               0
 40
               0
 40
               1
 40
               1
 40
               1
 10
            0.15
 20
            0.02
 30
               0
 41
               1
 10
            0.15
 20
          0.0275
 30
               0
 41
        0.707107
 10
          0.1575
 20
          0.0275
 30
               0
 41
               1
  0
SPLINE
  5
102
100
AcDbEntity
  8
0
100
AcDbSpline
 70
12
 71
2
 72
6
 73
3
 40
               0
 40
               0
 40
               0
 40
               1
 40
               1
 40
               1
 10
          0.1575
 20
          0.0125
 30
               0
 41
               1
 10
           0.165
 20
          0.0125
 30
               0
 41
        0.707107
 10
           0.165
 20
            0.02
 30
               0
 41
               1
  0
SPLINE
  5
103
100
AcDbEntity
  8
0
100
AcDbSpline
 70
12
 71
2
 72
6
 73
3
 40
               0
 40
               0
 40
               0
 40
               1
 40
               1
 40
               1
 10
          0.1575
 20
          0.0275
 30
               0
 41
               1
 10
           0.165
 20
          0.0275
 30
               0
 41
        0.707107
 10
           0.165
 20
            0.02
 30
               0
 41
               1
  0
SPLINE
  5
104
100
AcDbEntity
  8
0
100
AcDbSpline
 70
12
 71
2
 72
6
 73
3
 40
               0
 40
               0
 40
               0
 40
               1
 40
               1
 40
               1
 10
        0.177925
 20
       0.0229325
 30
               0
 41
        0.853553
 10
        0.180855
 20
            0.02
 30
               0
 41
        0.853464
 10
           0.185
 20
            0.02
 30
               0
 41
               1
  0
SPLINE
  5
105
100
AcDbEntity
  8
0
100
AcDbSpline
 70
12
 71
2
 72
6
 73
3
 40
               0
 40
               0
 40
               0
 40
               1
 40
               1
 40
               1
 10
            0.19
 20
           0.005
 30
               0
 41
               1
 10
           0.205
 20
           0.005
 30
               0
 41
        0.707107
 10
           0.205
 20
           -0.01
 30
               0
 41
               1
  0
SPLINE
  5
106
100
AcDbEntity
  8
0
100
AcDbSpline
 70
12
 71
2
 72
6
 73
3
 40
               0
 40
               0
 40
               0
 40
               1
 40
               1
 40
               1
 10
           0.195
 20
            0.02
 30
               0
 41
               1
 10
            0.22
 20
            0.02
 30
               0
 41
        0.707107
 10
            0.22
 20
          -0.005
 30
               0
 41
               1
  0
ENDSEC
  0
EOF
